ISO-10303-21;
HEADER;
/****************************************************************
 * Generated by software with PDE/Lib inside                    *
 * PDElib Version v51a, created Tue 01/15/2008                  *
 * International Technegroup Inc. (www.iti-oh.com)              *
 ****************************************************************/
FILE_DESCRIPTION((''),'2;1');
FILE_NAME('D:\\Doc-Josef\\ASIM-inv9\\MMIA-DPU\\SystemClock.stp','2008-12-10T12:34:37',('josef'),(''),'Autodesk Inventor 2009','Autodesk Inventor 2009','');
FILE_SCHEMA(('AUTOMOTIVE_DESIGN { 1 0 10303 214 1 1 1 1 }'));
ENDSEC;
DATA;
#5=APPLICATION_CONTEXT('automotive design');
#6=APPLICATION_PROTOCOL_DEFINITION('International Standard','automotive_design',2001,#5);
#7=PRODUCT_CONTEXT('',#5,'mechanical');
#8=PRODUCT('SystemClock','SystemClock',$,(#7));
#9=PRODUCT_RELATED_PRODUCT_CATEGORY('part',$,(#8));
#10=PRODUCT_DEFINITION_FORMATION('',$,#8);
#11=PRODUCT_DEFINITION_CONTEXT('part definition',#5,'design');
#12=PRODUCT_DEFINITION('',$,#10,#11);
#18=(NAMED_UNIT(*)PLANE_ANGLE_UNIT()SI_UNIT($,.RADIAN.));
#19=DIMENSIONAL_EXPONENTS(0.0,0.0,0.0,0.0,0.0,0.0,0.0);
#20=PLANE_ANGLE_MEASURE_WITH_UNIT(PLANE_ANGLE_MEASURE(0.017453292500000),#18);
#24=(CONVERSION_BASED_UNIT('DEGREE',#20)NAMED_UNIT(#19)PLANE_ANGLE_UNIT());
#28=(NAMED_UNIT(*)SI_UNIT($,.STERADIAN.)SOLID_ANGLE_UNIT());
#32=(LENGTH_UNIT()NAMED_UNIT(*)SI_UNIT(.MILLI.,.METRE.));
#34=UNCERTAINTY_MEASURE_WITH_UNIT(LENGTH_MEASURE(0.010000000000000),#32,'DISTANCE_ACCURACY_VALUE','');
#36=(GEOMETRIC_REPRESENTATION_CONTEXT(3)GLOBAL_UNCERTAINTY_ASSIGNED_CONTEXT((#34))GLOBAL_UNIT_ASSIGNED_CONTEXT((#24,#28,#32))REPRESENTATION_CONTEXT('None','None'));
#37=AXIS2_PLACEMENT_3D('',#38,#39,#40);
#38=CARTESIAN_POINT('',(0.0,0.0,0.0));
#39=DIRECTION('',(0.0,0.0,1.0));
#40=DIRECTION('',(1.0,0.0,0.0));
#41=SHAPE_REPRESENTATION('',(#37),#36);
#42=PRODUCT_DEFINITION_SHAPE('','',#12);
#43=SHAPE_DEFINITION_REPRESENTATION(#42,#41);
#49=(NAMED_UNIT(*)PLANE_ANGLE_UNIT()SI_UNIT($,.RADIAN.));
#50=DIMENSIONAL_EXPONENTS(0.0,0.0,0.0,0.0,0.0,0.0,0.0);
#51=PLANE_ANGLE_MEASURE_WITH_UNIT(PLANE_ANGLE_MEASURE(0.017453292500000),#49);
#55=(CONVERSION_BASED_UNIT('DEGREE',#51)NAMED_UNIT(#50)PLANE_ANGLE_UNIT());
#59=(NAMED_UNIT(*)SI_UNIT($,.STERADIAN.)SOLID_ANGLE_UNIT());
#63=(LENGTH_UNIT()NAMED_UNIT(*)SI_UNIT(.MILLI.,.METRE.));
#65=UNCERTAINTY_MEASURE_WITH_UNIT(LENGTH_MEASURE(0.000001000000000),#63,'DISTANCE_ACCURACY_VALUE','');
#67=(GEOMETRIC_REPRESENTATION_CONTEXT(3)GLOBAL_UNCERTAINTY_ASSIGNED_CONTEXT((#65))GLOBAL_UNIT_ASSIGNED_CONTEXT((#55,#59,#63))REPRESENTATION_CONTEXT('','3D'));
#68=CARTESIAN_POINT('',(4.999999999999998,5.0,0.0));
#69=DIRECTION('',(1.0,0.0,0.0));
#70=DIRECTION('',(0.0,0.0,-1.0));
#71=AXIS2_PLACEMENT_3D('',#68,#69,#70);
#72=PLANE('',#71);
#73=CARTESIAN_POINT('',(4.999999999999998,5.0,3.000000000000000));
#74=VERTEX_POINT('',#73);
#75=CARTESIAN_POINT('',(5.000000000000002,-5.0,3.000000000000000));
#76=VERTEX_POINT('',#75);
#77=CARTESIAN_POINT('',(4.999999999999997,5.0,3.000000000000000));
#78=DIRECTION('',(0.0,-1.0,0.0));
#79=VECTOR('',#78,10.0);
#80=LINE('',#77,#79);
#81=EDGE_CURVE('',#74,#76,#80,.T.);
#82=ORIENTED_EDGE('',*,*,#81,.T.);
#83=CARTESIAN_POINT('',(5.000000000000002,-5.0,0.0));
#84=VERTEX_POINT('',#83);
#85=CARTESIAN_POINT('',(5.000000000000002,-5.0,0.0));
#86=DIRECTION('',(0.0,0.0,1.0));
#87=VECTOR('',#86,3.000000000000000);
#88=LINE('',#85,#87);
#89=EDGE_CURVE('',#84,#76,#88,.T.);
#90=ORIENTED_EDGE('',*,*,#89,.F.);
#91=CARTESIAN_POINT('',(4.999999999999998,5.0,0.0));
#92=VERTEX_POINT('',#91);
#93=CARTESIAN_POINT('',(5.000000000000002,-5.0,0.0));
#94=DIRECTION('',(0.0,1.0,0.0));
#95=VECTOR('',#94,10.0);
#96=LINE('',#93,#95);
#97=EDGE_CURVE('',#84,#92,#96,.T.);
#98=ORIENTED_EDGE('',*,*,#97,.T.);
#99=CARTESIAN_POINT('',(4.999999999999998,5.0,0.0));
#100=DIRECTION('',(0.0,0.0,1.0));
#101=VECTOR('',#100,3.000000000000000);
#102=LINE('',#99,#101);
#103=EDGE_CURVE('',#92,#74,#102,.T.);
#104=ORIENTED_EDGE('',*,*,#103,.T.);
#105=EDGE_LOOP('',(#82,#90,#98,#104));
#106=FACE_OUTER_BOUND('',#105,.T.);
#107=ADVANCED_FACE('',(#106),#72,.T.);
#108=CARTESIAN_POINT('',(5.000000000000002,-5.0,0.0));
#109=DIRECTION('',(0.0,-1.0,0.0));
#110=DIRECTION('',(0.0,0.0,-1.0));
#111=AXIS2_PLACEMENT_3D('',#108,#109,#110);
#112=PLANE('',#111);
#113=CARTESIAN_POINT('',(-4.999999999999998,-5.000000000000004,3.000000000000000));
#114=VERTEX_POINT('',#113);
#115=CARTESIAN_POINT('',(5.000000000000002,-5.0,3.000000000000000));
#116=DIRECTION('',(-1.0,0.0,0.0));
#117=VECTOR('',#116,10.0);
#118=LINE('',#115,#117);
#119=EDGE_CURVE('',#76,#114,#118,.T.);
#120=ORIENTED_EDGE('',*,*,#119,.T.);
#121=CARTESIAN_POINT('',(-4.999999999999998,-5.000000000000004,0.0));
#122=VERTEX_POINT('',#121);
#123=CARTESIAN_POINT('',(-4.999999999999998,-5.000000000000004,0.0));
#124=DIRECTION('',(0.0,0.0,1.0));
#125=VECTOR('',#124,3.000000000000000);
#126=LINE('',#123,#125);
#127=EDGE_CURVE('',#122,#114,#126,.T.);
#128=ORIENTED_EDGE('',*,*,#127,.F.);
#129=CARTESIAN_POINT('',(-4.999999999999998,-5.000000000000004,0.0));
#130=DIRECTION('',(1.0,0.0,0.0));
#131=VECTOR('',#130,10.0);
#132=LINE('',#129,#131);
#133=EDGE_CURVE('',#122,#84,#132,.T.);
#134=ORIENTED_EDGE('',*,*,#133,.T.);
#135=ORIENTED_EDGE('',*,*,#89,.T.);
#136=EDGE_LOOP('',(#120,#128,#134,#135));
#137=FACE_OUTER_BOUND('',#136,.T.);
#138=ADVANCED_FACE('',(#137),#112,.T.);
#139=CARTESIAN_POINT('',(-4.999999999999998,-5.000000000000004,0.0));
#140=DIRECTION('',(-1.0,0.0,0.0));
#141=DIRECTION('',(0.0,0.0,1.0));
#142=AXIS2_PLACEMENT_3D('',#139,#140,#141);
#143=PLANE('',#142);
#144=CARTESIAN_POINT('',(-5.000000000000002,4.999999999999999,3.000000000000000));
#145=VERTEX_POINT('',#144);
#146=CARTESIAN_POINT('',(-4.999999999999998,-5.000000000000004,3.000000000000000));
#147=DIRECTION('',(0.0,1.0,0.0));
#148=VECTOR('',#147,10.000000000000004);
#149=LINE('',#146,#148);
#150=EDGE_CURVE('',#114,#145,#149,.T.);
#151=ORIENTED_EDGE('',*,*,#150,.T.);
#152=CARTESIAN_POINT('',(-5.000000000000002,4.999999999999999,0.0));
#153=VERTEX_POINT('',#152);
#154=CARTESIAN_POINT('',(-5.000000000000002,4.999999999999999,0.0));
#155=DIRECTION('',(0.0,0.0,1.0));
#156=VECTOR('',#155,3.000000000000000);
#157=LINE('',#154,#156);
#158=EDGE_CURVE('',#153,#145,#157,.T.);
#159=ORIENTED_EDGE('',*,*,#158,.F.);
#160=CARTESIAN_POINT('',(-5.000000000000002,4.999999999999999,0.0));
#161=DIRECTION('',(0.0,-1.0,0.0));
#162=VECTOR('',#161,10.000000000000004);
#163=LINE('',#160,#162);
#164=EDGE_CURVE('',#153,#122,#163,.T.);
#165=ORIENTED_EDGE('',*,*,#164,.T.);
#166=ORIENTED_EDGE('',*,*,#127,.T.);
#167=EDGE_LOOP('',(#151,#159,#165,#166));
#168=FACE_OUTER_BOUND('',#167,.T.);
#169=ADVANCED_FACE('',(#168),#143,.T.);
#170=CARTESIAN_POINT('',(-5.000000000000002,4.999999999999999,0.0));
#171=DIRECTION('',(0.0,1.0,0.0));
#172=DIRECTION('',(0.0,0.0,1.0));
#173=AXIS2_PLACEMENT_3D('',#170,#171,#172);
#174=PLANE('',#173);
#175=CARTESIAN_POINT('',(-5.000000000000002,4.999999999999999,3.000000000000000));
#176=DIRECTION('',(1.0,0.0,0.0));
#177=VECTOR('',#176,10.0);
#178=LINE('',#175,#177);
#179=EDGE_CURVE('',#145,#74,#178,.T.);
#180=ORIENTED_EDGE('',*,*,#179,.T.);
#181=ORIENTED_EDGE('',*,*,#103,.F.);
#182=CARTESIAN_POINT('',(4.999999999999998,5.0,0.0));
#183=DIRECTION('',(-1.0,0.0,0.0));
#184=VECTOR('',#183,10.0);
#185=LINE('',#182,#184);
#186=EDGE_CURVE('',#92,#153,#185,.T.);
#187=ORIENTED_EDGE('',*,*,#186,.T.);
#188=ORIENTED_EDGE('',*,*,#158,.T.);
#189=EDGE_LOOP('',(#180,#181,#187,#188));
#190=FACE_OUTER_BOUND('',#189,.T.);
#191=ADVANCED_FACE('',(#190),#174,.T.);
#192=CARTESIAN_POINT('',(-6.938894E-016,-1.160688E-015,0.0));
#193=DIRECTION('',(0.0,0.0,1.0));
#194=DIRECTION('',(1.0,0.0,0.0));
#195=AXIS2_PLACEMENT_3D('',#192,#193,#194);
#196=PLANE('',#195);
#197=ORIENTED_EDGE('',*,*,#186,.F.);
#198=ORIENTED_EDGE('',*,*,#97,.F.);
#199=ORIENTED_EDGE('',*,*,#133,.F.);
#200=ORIENTED_EDGE('',*,*,#164,.F.);
#201=EDGE_LOOP('',(#197,#198,#199,#200));
#202=FACE_OUTER_BOUND('',#201,.T.);
#203=ADVANCED_FACE('',(#202),#196,.F.);
#204=CARTESIAN_POINT('',(-5.551115E-016,-1.034526E-015,3.000000000000000));
#205=DIRECTION('',(0.0,0.0,1.0));
#206=DIRECTION('',(1.0,0.0,0.0));
#207=AXIS2_PLACEMENT_3D('',#204,#205,#206);
#208=PLANE('',#207);
#209=ORIENTED_EDGE('',*,*,#81,.F.);
#210=ORIENTED_EDGE('',*,*,#179,.F.);
#211=ORIENTED_EDGE('',*,*,#150,.F.);
#212=ORIENTED_EDGE('',*,*,#119,.F.);
#213=EDGE_LOOP('',(#209,#210,#211,#212));
#214=FACE_OUTER_BOUND('',#213,.T.);
#215=ADVANCED_FACE('',(#214),#208,.T.);
#216=CLOSED_SHELL('',(#107,#138,#169,#191,#203,#215));
#217=MANIFOLD_SOLID_BREP('',#216);
#218=COLOUR_RGB('Plastic (Black)',0.705882012844086,0.705882012844086,0.705882012844086);
#219=FILL_AREA_STYLE_COLOUR('Plastic (Black)',#218);
#220=FILL_AREA_STYLE('Plastic (Black)',(#219));
#221=SURFACE_STYLE_FILL_AREA(#220);
#222=SURFACE_SIDE_STYLE('Plastic (Black)',(#221));
#223=SURFACE_STYLE_USAGE(.BOTH.,#222);
#224=PRESENTATION_STYLE_ASSIGNMENT((#223));
#225=STYLED_ITEM('',(#224),#217);
#226=MECHANICAL_DESIGN_GEOMETRIC_PRESENTATION_REPRESENTATION('',(#225),#36);
#227=ADVANCED_BREP_SHAPE_REPRESENTATION('ABSR',(#217),#36);
#228=SHAPE_REPRESENTATION_RELATIONSHIP('SRR','None',#227,#41);
ENDSEC;
END-ISO-10303-21;
